ISO-10303-21;
HEADER;
FILE_DESCRIPTION (( 'STEP AP203' ),
    '1' );
FILE_NAME ('Q-ZDWWP-R21-20-1064-SHM.STEP',
    '2020-12-22T09:01:33',
    ( '' ),
    ( '' ),
    'SwSTEP 2.0',
    'SolidWorks 2020',
    '' );
FILE_SCHEMA (( 'CONFIG_CONTROL_DESIGN' ));
ENDSEC;

DATA;
#1 = CARTESIAN_POINT ( 'NONE',  ( -1.614212418857619014, 0.000000000000000000, 12.69999999999999929 ) ) ;
#2 = AXIS2_PLACEMENT_3D ( 'NONE', #223, #273, #18 ) ;
#3 = CC_DESIGN_DATE_AND_TIME_ASSIGNMENT ( #261, #185, ( #64 ) ) ;
#4 = FACE_OUTER_BOUND ( 'NONE', #305, .T. ) ;
#5 = CARTESIAN_POINT ( 'NONE',  ( -2.500000000000000444, 0.000000000000000000, 0.000000000000000000 ) ) ;
#6 = ORIENTED_EDGE ( 'NONE', *, *, #111, .F. ) ;
#7 = APPLICATION_PROTOCOL_DEFINITION ( 'international standard', 'config_control_design', 1994, #331 ) ;
#8 = CARTESIAN_POINT ( 'NONE',  ( -1.614212418857619014, 0.000000000000000000, 0.000000000000000000 ) ) ;
#9 = VERTEX_POINT ( 'NONE', #159 ) ;
#10 = FACE_BOUND ( 'NONE', #113, .T. ) ;
#11 = PERSON_AND_ORGANIZATION ( #233, #149 ) ;
#12 = FACE_OUTER_BOUND ( 'NONE', #221, .T. ) ;
#13 = LINE ( 'NONE', #295, #26 ) ;
#14 = ADVANCED_FACE ( 'NONE', ( #78 ), #285, .F. ) ;
#15 = DIRECTION ( 'NONE',  ( 0.000000000000000000, 0.000000000000000000, 1.000000000000000000 ) ) ;
#16 = LOCAL_TIME ( 17, 1, 33.00000000000000000, #201 ) ;
#17 = ORIENTED_EDGE ( 'NONE', *, *, #179, .F. ) ;
#18 = DIRECTION ( 'NONE',  ( 0.000000000000000000, 0.000000000000000000, 1.000000000000000000 ) ) ;
#19 = APPROVAL_DATE_TIME ( #277, #202 ) ;
#20 = FACE_OUTER_BOUND ( 'NONE', #161, .T. ) ;
#21 = COORDINATED_UNIVERSAL_TIME_OFFSET ( 8, 0, .AHEAD. ) ;
#22 = ORIENTED_EDGE ( 'NONE', *, *, #327, .F. ) ;
#23 = LOCAL_TIME ( 17, 1, 33.00000000000000000, #99 ) ;
#24 = CARTESIAN_POINT ( 'NONE',  ( 2.999999999999999112, 0.000000000000000000, 0.000000000000000000 ) ) ;
#25 = CARTESIAN_POINT ( 'NONE',  ( 2.999999999999999112, 0.000000000000000000, 0.000000000000000000 ) ) ;
#26 = VECTOR ( 'NONE', #272, 1000.000000000000000 ) ;
#27 = CYLINDRICAL_SURFACE ( 'NONE', #135, 10.00000000000000000 ) ;
#28 = EDGE_CURVE ( 'NONE', #254, #9, #200, .T. ) ;
#29 = EDGE_LOOP ( 'NONE', ( #122, #73, #86, #43 ) ) ;
#30 =( NAMED_UNIT ( * ) PLANE_ANGLE_UNIT ( ) SI_UNIT ( $, .RADIAN. ) );
#31 = EDGE_CURVE ( 'NONE', #328, #322, #117, .T. ) ;
#32 = ORIENTED_EDGE ( 'NONE', *, *, #31, .F. ) ;
#33 = CARTESIAN_POINT ( 'NONE',  ( -1.614212418857619014, 1.555301434917138433E-15, -12.69999999999999929 ) ) ;
#34 = AXIS2_PLACEMENT_3D ( 'NONE', #103, #125, #313 ) ;
#35 = ORIENTED_EDGE ( 'NONE', *, *, #183, .T. ) ;
#36 = ORIENTED_EDGE ( 'NONE', *, *, #31, .T. ) ;
#37 = CARTESIAN_POINT ( 'NONE',  ( 3.000000000000000000, 0.000000000000000000, 12.69999999999999929 ) ) ;
#38 = CC_DESIGN_PERSON_AND_ORGANIZATION_ASSIGNMENT ( #47, #175, ( #60 ) ) ;
#39 = COORDINATED_UNIVERSAL_TIME_OFFSET ( 8, 0, .AHEAD. ) ;
#40 = CARTESIAN_POINT ( 'NONE',  ( -3.000000000000000000, 10.00000000000000000, 0.000000000000000000 ) ) ;
#41 = DIRECTION ( 'NONE',  ( 0.000000000000000000, 0.000000000000000000, 1.000000000000000000 ) ) ;
#42 = PERSON_AND_ORGANIZATION ( #233, #149 ) ;
#43 = ORIENTED_EDGE ( 'NONE', *, *, #114, .T. ) ;
#44 = EDGE_CURVE ( 'NONE', #306, #241, #224, .T. ) ;
#45 = SECURITY_CLASSIFICATION_LEVEL ( 'unclassified' ) ;
#46 = ORIENTED_EDGE ( 'NONE', *, *, #128, .T. ) ;
#47 = PERSON_AND_ORGANIZATION ( #233, #149 ) ;
#48 = VECTOR ( 'NONE', #162, 1000.000000000000000 ) ;
#49 = CIRCLE ( 'NONE', #53, 12.69999999999999929 ) ;
#50 = DIRECTION ( 'NONE',  ( -1.000000000000000000, -0.000000000000000000, -0.000000000000000000 ) ) ;
#51 = CC_DESIGN_PERSON_AND_ORGANIZATION_ASSIGNMENT ( #330, #148, ( #97 ) ) ;
#52 = DIRECTION ( 'NONE',  ( 0.000000000000000000, 0.000000000000000000, 1.000000000000000000 ) ) ;
#53 = AXIS2_PLACEMENT_3D ( 'NONE', #104, #102, #52 ) ;
#54 = CARTESIAN_POINT ( 'NONE',  ( 2.500000000000000888, 0.000000000000000000, 0.000000000000000000 ) ) ;
#55 = APPROVAL_STATUS ( 'not_yet_approved' ) ;
#56 = EDGE_LOOP ( 'NONE', ( #243, #298, #94, #189 ) ) ;
#57 = DIRECTION ( 'NONE',  ( -0.000000000000000000, 0.000000000000000000, 1.000000000000000000 ) ) ;
#58 = VERTEX_POINT ( 'NONE', #156 ) ;
#59 = FACE_OUTER_BOUND ( 'NONE', #56, .T. ) ;
#60 = SECURITY_CLASSIFICATION ( '', '', #45 ) ;
#61 = COORDINATED_UNIVERSAL_TIME_OFFSET ( 8, 0, .AHEAD. ) ;
#62 = ORIENTED_EDGE ( 'NONE', *, *, #111, .T. ) ;
#63 = UNCERTAINTY_MEASURE_WITH_UNIT (LENGTH_MEASURE( 1.000000000000000082E-05 ), #225, 'distance_accuracy_value', 'NONE');
#64 = PRODUCT_DEFINITION ( 'UNKNOWN', '', #97, #160 ) ;
#65 = PERSON_AND_ORGANIZATION_ROLE ( 'creator' ) ;
#66 = ORIENTED_EDGE ( 'NONE', *, *, #44, .T. ) ;
#67 = CARTESIAN_POINT ( 'NONE',  ( -3.000000000000000000, 0.000000000000000000, 0.000000000000000000 ) ) ;
#68 = DIRECTION ( 'NONE',  ( 0.000000000000000000, 0.000000000000000000, 1.000000000000000000 ) ) ;
#69 = AXIS2_PLACEMENT_3D ( 'NONE', #235, #184, #212 ) ;
#70 = APPROVAL_ROLE ( '' ) ;
#71 = ORIENTED_EDGE ( 'NONE', *, *, #105, .F. ) ;
#72 = DATE_TIME_ROLE ( 'classification_date' ) ;
#73 = ORIENTED_EDGE ( 'NONE', *, *, #82, .F. ) ;
#74 = VECTOR ( 'NONE', #88, 1000.000000000000000 ) ;
#75 = EDGE_LOOP ( 'NONE', ( #84, #137 ) ) ;
#76 = EDGE_LOOP ( 'NONE', ( #22, #226, #89, #203 ) ) ;
#77 = AXIS2_PLACEMENT_3D ( 'NONE', #5, #208, #81 ) ;
#78 = FACE_OUTER_BOUND ( 'NONE', #29, .T. ) ;
#79 = PLANE ( 'NONE',  #230 ) ;
#80 = LOCAL_TIME ( 17, 1, 33.00000000000000000, #61 ) ;
#81 = DIRECTION ( 'NONE',  ( 0.000000000000000000, 0.000000000000000000, -1.000000000000000000 ) ) ;
#82 = EDGE_CURVE ( 'NONE', #58, #231, #304, .T. ) ;
#83 = DATE_AND_TIME ( #219, #80 ) ;
#84 = ORIENTED_EDGE ( 'NONE', *, *, #114, .F. ) ;
#85 = CARTESIAN_POINT ( 'NONE',  ( -3.000000000000000444, 1.224646799147353256E-15, -10.00000000000000000 ) ) ;
#86 = ORIENTED_EDGE ( 'NONE', *, *, #314, .T. ) ;
#87 = LINE ( 'NONE', #180, #194 ) ;
#88 = DIRECTION ( 'NONE',  ( -1.000000000000000000, -0.000000000000000000, -0.000000000000000000 ) ) ;
#89 = ORIENTED_EDGE ( 'NONE', *, *, #247, .T. ) ;
#90 = DIRECTION ( 'NONE',  ( 0.000000000000000000, 0.000000000000000000, -1.000000000000000000 ) ) ;
#91 = CIRCLE ( 'NONE', #153, 10.00000000000000000 ) ;
#92 = DIRECTION ( 'NONE',  ( 0.000000000000000000, 0.000000000000000000, 1.000000000000000000 ) ) ;
#93 = DIRECTION ( 'NONE',  ( 1.000000000000000000, 0.000000000000000000, 0.000000000000000000 ) ) ;
#94 = ORIENTED_EDGE ( 'NONE', *, *, #214, .F. ) ;
#95 = DIRECTION ( 'NONE',  ( -1.000000000000000000, -0.000000000000000000, -0.000000000000000000 ) ) ;
#96 = DIRECTION ( 'NONE',  ( -1.000000000000000000, 0.000000000000000000, -0.000000000000000000 ) ) ;
#97 = PRODUCT_DEFINITION_FORMATION_WITH_SPECIFIED_SOURCE ( 'ANY', '', #276, .NOT_KNOWN. ) ;
#98 = PERSON_AND_ORGANIZATION_ROLE ( 'creator' ) ;
#99 = COORDINATED_UNIVERSAL_TIME_OFFSET ( 8, 0, .AHEAD. ) ;
#100 = CALENDAR_DATE ( 2020, 22, 12 ) ;
#101 = DIRECTION ( 'NONE',  ( -1.000000000000000000, -0.000000000000000000, -0.000000000000000000 ) ) ;
#102 = DIRECTION ( 'NONE',  ( -1.000000000000000000, -0.000000000000000000, -0.000000000000000000 ) ) ;
#103 = CARTESIAN_POINT ( 'NONE',  ( -2.500000000000000444, 10.00000000000000000, 0.000000000000000000 ) ) ;
#104 = CARTESIAN_POINT ( 'NONE',  ( 3.000000000000000000, 0.000000000000000000, 0.000000000000000000 ) ) ;
#105 = EDGE_CURVE ( 'NONE', #241, #306, #49, .T. ) ;
#106 = LOCAL_TIME ( 17, 1, 33.00000000000000000, #39 ) ;
#107 = CARTESIAN_POINT ( 'NONE',  ( 2.500000000000000888, 1.224646799147353256E-15, -10.00000000000000000 ) ) ;
#108 = CARTESIAN_POINT ( 'NONE',  ( -3.000000000000000444, 0.000000000000000000, 10.00000000000000000 ) ) ;
#109 = FACE_BOUND ( 'NONE', #186, .T. ) ;
#110 = ADVANCED_FACE ( 'NONE', ( #213 ), #27, .F. ) ;
#111 = EDGE_CURVE ( 'NONE', #118, #167, #287, .T. ) ;
#112 = ORIENTED_EDGE ( 'NONE', *, *, #82, .T. ) ;
#113 = EDGE_LOOP ( 'NONE', ( #232, #32 ) ) ;
#114 = EDGE_CURVE ( 'NONE', #227, #131, #146, .T. ) ;
#115 = DIRECTION ( 'NONE',  ( -1.000000000000000000, -0.000000000000000000, -0.000000000000000000 ) ) ;
#116 = AXIS2_PLACEMENT_3D ( 'NONE', #250, #197, #68 ) ;
#117 = CIRCLE ( 'NONE', #69, 10.00000000000000000 ) ;
#118 = VERTEX_POINT ( 'NONE', #257 ) ;
#119 = CYLINDRICAL_SURFACE ( 'NONE', #116, 10.00000000000000000 ) ;
#120 = ORIENTED_EDGE ( 'NONE', *, *, #327, .T. ) ;
#121 = CARTESIAN_POINT ( 'NONE',  ( 2.999999999999999112, 12.69999999999999929, 0.000000000000000000 ) ) ;
#122 = ORIENTED_EDGE ( 'NONE', *, *, #309, .F. ) ;
#123 = AXIS2_PLACEMENT_3D ( 'NONE', #320, #317, #163 ) ;
#124 = DIRECTION ( 'NONE',  ( -1.000000000000000000, -0.000000000000000000, -0.000000000000000000 ) ) ;
#125 = DIRECTION ( 'NONE',  ( 1.000000000000000000, 0.000000000000000000, 0.000000000000000000 ) ) ;
#126 = AXIS2_PLACEMENT_3D ( 'NONE', #121, #96, #57 ) ;
#127 = LINE ( 'NONE', #1, #145 ) ;
#128 = EDGE_CURVE ( 'NONE', #241, #9, #127, .T. ) ;
#129 = ORIENTED_EDGE ( 'NONE', *, *, #211, .F. ) ;
#130 = DIRECTION ( 'NONE',  ( 0.000000000000000000, 0.000000000000000000, 1.000000000000000000 ) ) ;
#131 = VERTEX_POINT ( 'NONE', #107 ) ;
#132 = CC_DESIGN_APPROVAL ( #134, ( #60 ) ) ;
#133 = CARTESIAN_POINT ( 'NONE',  ( 3.000000000000000000, 1.555301434917138433E-15, -12.69999999999999929 ) ) ;
#134 = APPROVAL ( #252, 'UNSPECIFIED' ) ;
#135 = AXIS2_PLACEMENT_3D ( 'NONE', #290, #258, #158 ) ;
#136 = PERSON_AND_ORGANIZATION_ROLE ( 'design_owner' ) ;
#137 = ORIENTED_EDGE ( 'NONE', *, *, #183, .F. ) ;
#138 = DIRECTION ( 'NONE',  ( 0.000000000000000000, 0.000000000000000000, 1.000000000000000000 ) ) ;
#139 = PERSON_AND_ORGANIZATION ( #233, #149 ) ;
#140 = PLANE ( 'NONE',  #209 ) ;
#141 = CARTESIAN_POINT ( 'NONE',  ( -1.614212418857619014, 1.224646799147353256E-15, -10.00000000000000000 ) ) ;
#142 = ORIENTED_EDGE ( 'NONE', *, *, #214, .T. ) ;
#143 = DIRECTION ( 'NONE',  ( -1.000000000000000000, -0.000000000000000000, -0.000000000000000000 ) ) ;
#144 = APPROVAL_PERSON_ORGANIZATION ( #11, #280, #192 ) ;
#145 = VECTOR ( 'NONE', #50, 1000.000000000000000 ) ;
#146 = CIRCLE ( 'NONE', #281, 10.00000000000000000 ) ;
#147 = CARTESIAN_POINT ( 'NONE',  ( -2.500000000000000444, 0.000000000000000000, 0.000000000000000000 ) ) ;
#148 = PERSON_AND_ORGANIZATION_ROLE ( 'design_supplier' ) ;
#149 = ORGANIZATION ( 'UNSPECIFIED', 'UNSPECIFIED', '' ) ;
#150 = SHAPE_DEFINITION_REPRESENTATION ( #269, #244 ) ;
#151 = ADVANCED_FACE ( 'NONE', ( #4 ), #187, .F. ) ;
#152 = EDGE_LOOP ( 'NONE', ( #253, #66, #46, #193 ) ) ;
#153 = AXIS2_PLACEMENT_3D ( 'NONE', #147, #302, #166 ) ;
#154 = DIRECTION ( 'NONE',  ( -0.000000000000000000, 0.000000000000000000, 1.000000000000000000 ) ) ;
#155 = CARTESIAN_POINT ( 'NONE',  ( 3.000000000000000000, 0.000000000000000000, 0.000000000000000000 ) ) ;
#156 = CARTESIAN_POINT ( 'NONE',  ( 2.999999999999999112, 0.000000000000000000, 10.00000000000000000 ) ) ;
#157 = APPROVAL_PERSON_ORGANIZATION ( #289, #202, #177 ) ;
#158 = DIRECTION ( 'NONE',  ( 0.000000000000000000, 0.000000000000000000, 1.000000000000000000 ) ) ;
#159 = CARTESIAN_POINT ( 'NONE',  ( -3.000000000000000000, 0.000000000000000000, 12.69999999999999929 ) ) ;
#160 = DESIGN_CONTEXT ( 'detailed design', #331, 'design' ) ;
#161 = EDGE_LOOP ( 'NONE', ( #71, #174 ) ) ;
#162 = DIRECTION ( 'NONE',  ( -1.000000000000000000, -0.000000000000000000, -0.000000000000000000 ) ) ;
#163 = DIRECTION ( 'NONE',  ( 1.000000000000000000, 0.000000000000000000, 0.000000000000000000 ) ) ;
#164 = ORIENTED_EDGE ( 'NONE', *, *, #314, .F. ) ;
#165 = CIRCLE ( 'NONE', #324, 10.00000000000000000 ) ;
#166 = DIRECTION ( 'NONE',  ( 0.000000000000000000, 0.000000000000000000, -1.000000000000000000 ) ) ;
#167 = VERTEX_POINT ( 'NONE', #210 ) ;
#168 = FACE_OUTER_BOUND ( 'NONE', #152, .T. ) ;
#169 = ADVANCED_FACE ( 'NONE', ( #239 ), #79, .F. ) ;
#170 = FACE_OUTER_BOUND ( 'NONE', #264, .T. ) ;
#171 = CC_DESIGN_APPROVAL ( #202, ( #97 ) ) ;
#172 = AXIS2_PLACEMENT_3D ( 'NONE', #283, #315, #130 ) ;
#173 = PERSON_AND_ORGANIZATION ( #233, #149 ) ;
#174 = ORIENTED_EDGE ( 'NONE', *, *, #44, .F. ) ;
#175 = PERSON_AND_ORGANIZATION_ROLE ( 'classification_officer' ) ;
#176 = CIRCLE ( 'NONE', #286, 10.00000000000000000 ) ;
#177 = APPROVAL_ROLE ( '' ) ;
#178 = AXIS2_PLACEMENT_3D ( 'NONE', #25, #282, #312 ) ;
#179 = EDGE_CURVE ( 'NONE', #231, #58, #267, .T. ) ;
#180 = CARTESIAN_POINT ( 'NONE',  ( -1.614212418857619014, 1.224646799147353256E-15, -10.00000000000000000 ) ) ;
#181 = AXIS2_PLACEMENT_3D ( 'NONE', #24, #124, #323 ) ;
#182 = CC_DESIGN_PERSON_AND_ORGANIZATION_ASSIGNMENT ( #139, #136, ( #276 ) ) ;
#183 = EDGE_CURVE ( 'NONE', #131, #227, #176, .T. ) ;
#184 = DIRECTION ( 'NONE',  ( -1.000000000000000000, -0.000000000000000000, -0.000000000000000000 ) ) ;
#185 = DATE_TIME_ROLE ( 'creation_date' ) ;
#186 = EDGE_LOOP ( 'NONE', ( #112, #205 ) ) ;
#187 = PLANE ( 'NONE',  #34 ) ;
#188 = DIRECTION ( 'NONE',  ( -1.000000000000000000, -0.000000000000000000, -0.000000000000000000 ) ) ;
#189 = ORIENTED_EDGE ( 'NONE', *, *, #128, .F. ) ;
#190 = ADVANCED_FACE ( 'NONE', ( #59 ), #299, .T. ) ;
#191 = PLANE ( 'NONE',  #126 ) ;
#192 = APPROVAL_ROLE ( '' ) ;
#193 = ORIENTED_EDGE ( 'NONE', *, *, #28, .F. ) ;
#194 = VECTOR ( 'NONE', #101, 1000.000000000000000 ) ;
#195 = CARTESIAN_POINT ( 'NONE',  ( -1.614212418857619014, 0.000000000000000000, 0.000000000000000000 ) ) ;
#196 = LINE ( 'NONE', #228, #259 ) ;
#197 = DIRECTION ( 'NONE',  ( -1.000000000000000000, -0.000000000000000000, -0.000000000000000000 ) ) ;
#198 = CYLINDRICAL_SURFACE ( 'NONE', #279, 10.00000000000000000 ) ;
#199 = MANIFOLD_SOLID_BREP ( 'Ðý×', #215 ) ;
#200 = CIRCLE ( 'NONE', #172, 12.69999999999999929 ) ;
#201 = COORDINATED_UNIVERSAL_TIME_OFFSET ( 8, 0, .AHEAD. ) ;
#202 = APPROVAL ( #55, 'UNSPECIFIED' ) ;
#203 = ORIENTED_EDGE ( 'NONE', *, *, #310, .T. ) ;
#204 = CALENDAR_DATE ( 2020, 22, 12 ) ;
#205 = ORIENTED_EDGE ( 'NONE', *, *, #179, .T. ) ;
#206 = AXIS2_PLACEMENT_3D ( 'NONE', #275, #294, #15 ) ;
#207 = APPLICATION_CONTEXT ( 'configuration controlled 3d designs of mechanical parts and assemblies' ) ;
#208 = DIRECTION ( 'NONE',  ( 1.000000000000000000, 0.000000000000000000, 0.000000000000000000 ) ) ;
#209 = AXIS2_PLACEMENT_3D ( 'NONE', #40, #93, #90 ) ;
#210 = CARTESIAN_POINT ( 'NONE',  ( -2.500000000000000444, 1.224646799147353256E-15, -10.00000000000000000 ) ) ;
#211 = EDGE_CURVE ( 'NONE', #167, #118, #91, .T. ) ;
#212 = DIRECTION ( 'NONE',  ( 0.000000000000000000, 0.000000000000000000, 1.000000000000000000 ) ) ;
#213 = FACE_OUTER_BOUND ( 'NONE', #238, .T. ) ;
#214 = EDGE_CURVE ( 'NONE', #9, #254, #334, .T. ) ;
#215 = CLOSED_SHELL ( 'NONE', ( #190, #110, #278, #169, #14, #251, #245, #236, #300, #151 ) ) ;
#216 = CARTESIAN_POINT ( 'NONE',  ( 2.500000000000000444, 10.00000000000000000, 0.000000000000000000 ) ) ;
#217 = LINE ( 'NONE', #33, #48 ) ;
#218 = APPROVAL_STATUS ( 'not_yet_approved' ) ;
#219 = CALENDAR_DATE ( 2020, 22, 12 ) ;
#220 = CC_DESIGN_PERSON_AND_ORGANIZATION_ASSIGNMENT ( #42, #98, ( #97 ) ) ;
#221 = EDGE_LOOP ( 'NONE', ( #142, #333 ) ) ;
#222 = CC_DESIGN_DATE_AND_TIME_ASSIGNMENT ( #249, #72, ( #60 ) ) ;
#223 = CARTESIAN_POINT ( 'NONE',  ( -1.614212418857619014, 0.000000000000000000, 0.000000000000000000 ) ) ;
#224 = CIRCLE ( 'NONE', #256, 12.69999999999999929 ) ;
#225 =( LENGTH_UNIT ( ) NAMED_UNIT ( * ) SI_UNIT ( .MILLI., .METRE. ) );
#226 = ORIENTED_EDGE ( 'NONE', *, *, #211, .T. ) ;
#227 = VERTEX_POINT ( 'NONE', #326 ) ;
#228 = CARTESIAN_POINT ( 'NONE',  ( -1.614212418857619014, 0.000000000000000000, 10.00000000000000000 ) ) ;
#229 = APPROVAL_PERSON_ORGANIZATION ( #173, #134, #70 ) ;
#230 = AXIS2_PLACEMENT_3D ( 'NONE', #216, #319, #154 ) ;
#231 = VERTEX_POINT ( 'NONE', #321 ) ;
#232 = ORIENTED_EDGE ( 'NONE', *, *, #310, .F. ) ;
#233 = PERSON ( 'UNSPECIFIED', 'UNSPECIFIED', 'UNSPECIFIED', ('UNSPECIFIED'), ('UNSPECIFIED'), ('UNSPECIFIED') ) ;
#234 = DIRECTION ( 'NONE',  ( -1.000000000000000000, -0.000000000000000000, -0.000000000000000000 ) ) ;
#235 = CARTESIAN_POINT ( 'NONE',  ( -3.000000000000000444, 0.000000000000000000, 0.000000000000000000 ) ) ;
#236 = ADVANCED_FACE ( 'NONE', ( #168 ), #271, .T. ) ;
#237 = DIRECTION ( 'NONE',  ( -1.000000000000000000, -0.000000000000000000, -0.000000000000000000 ) ) ;
#238 = EDGE_LOOP ( 'NONE', ( #62, #120, #36, #260 ) ) ;
#239 = FACE_OUTER_BOUND ( 'NONE', #75, .T. ) ;
#240 = AXIS2_PLACEMENT_3D ( 'NONE', #67, #115, #138 ) ;
#241 = VERTEX_POINT ( 'NONE', #37 ) ;
#242 = APPLICATION_PROTOCOL_DEFINITION ( 'international standard', 'config_control_design', 1994, #207 ) ;
#243 = ORIENTED_EDGE ( 'NONE', *, *, #105, .T. ) ;
#244 = ADVANCED_BREP_SHAPE_REPRESENTATION ( 'Q-ZDWWP-R21-20-1064-SHM', ( #199, #123 ), #308 ) ;
#245 = ADVANCED_FACE ( 'NONE', ( #10, #12 ), #140, .F. ) ;
#246 = LINE ( 'NONE', #141, #74 ) ;
#247 = EDGE_CURVE ( 'NONE', #118, #322, #196, .T. ) ;
#248 = DIRECTION ( 'NONE',  ( 0.000000000000000000, 0.000000000000000000, 1.000000000000000000 ) ) ;
#249 = DATE_AND_TIME ( #204, #16 ) ;
#250 = CARTESIAN_POINT ( 'NONE',  ( -1.614212418857619014, 0.000000000000000000, 0.000000000000000000 ) ) ;
#251 = ADVANCED_FACE ( 'NONE', ( #265 ), #119, .F. ) ;
#252 = APPROVAL_STATUS ( 'not_yet_approved' ) ;
#253 = ORIENTED_EDGE ( 'NONE', *, *, #284, .F. ) ;
#254 = VERTEX_POINT ( 'NONE', #329 ) ;
#255 = CC_DESIGN_SECURITY_CLASSIFICATION ( #60, ( #97 ) ) ;
#256 = AXIS2_PLACEMENT_3D ( 'NONE', #155, #335, #288 ) ;
#257 = CARTESIAN_POINT ( 'NONE',  ( -2.500000000000000444, 0.000000000000000000, 10.00000000000000000 ) ) ;
#258 = DIRECTION ( 'NONE',  ( -1.000000000000000000, -0.000000000000000000, -0.000000000000000000 ) ) ;
#259 = VECTOR ( 'NONE', #95, 1000.000000000000000 ) ;
#260 = ORIENTED_EDGE ( 'NONE', *, *, #247, .F. ) ;
#261 = DATE_AND_TIME ( #301, #106 ) ;
#262 = DIRECTION ( 'NONE',  ( 0.000000000000000000, 0.000000000000000000, 1.000000000000000000 ) ) ;
#263 =( NAMED_UNIT ( * ) SI_UNIT ( $, .STERADIAN. ) SOLID_ANGLE_UNIT ( ) );
#264 = EDGE_LOOP ( 'NONE', ( #17, #296, #35, #164 ) ) ;
#265 = FACE_OUTER_BOUND ( 'NONE', #76, .T. ) ;
#266 = MECHANICAL_CONTEXT ( 'NONE', #207, 'mechanical' ) ;
#267 = CIRCLE ( 'NONE', #181, 10.00000000000000000 ) ;
#268 = DIRECTION ( 'NONE',  ( -1.000000000000000000, -0.000000000000000000, -0.000000000000000000 ) ) ;
#269 = PRODUCT_DEFINITION_SHAPE ( 'NONE', 'NONE',  #64 ) ;
#270 = APPROVAL_DATE_TIME ( #83, #280 ) ;
#271 = CYLINDRICAL_SURFACE ( 'NONE', #2, 12.69999999999999929 ) ;
#272 = DIRECTION ( 'NONE',  ( -1.000000000000000000, -0.000000000000000000, -0.000000000000000000 ) ) ;
#273 = DIRECTION ( 'NONE',  ( -1.000000000000000000, -0.000000000000000000, -0.000000000000000000 ) ) ;
#274 = CC_DESIGN_APPROVAL ( #280, ( #64 ) ) ;
#275 = CARTESIAN_POINT ( 'NONE',  ( -1.614212418857619014, 0.000000000000000000, 0.000000000000000000 ) ) ;
#276 = PRODUCT ( 'Q-ZDWWP-R21-20-1064-SHM', 'Q-ZDWWP-R21-20-1064-SHM', '', ( #266 ) ) ;
#277 = DATE_AND_TIME ( #100, #316 ) ;
#278 = ADVANCED_FACE ( 'NONE', ( #170 ), #198, .F. ) ;
#279 = AXIS2_PLACEMENT_3D ( 'NONE', #195, #268, #41 ) ;
#280 = APPROVAL ( #218, 'UNSPECIFIED' ) ;
#281 = AXIS2_PLACEMENT_3D ( 'NONE', #54, #234, #262 ) ;
#282 = DIRECTION ( 'NONE',  ( -1.000000000000000000, -0.000000000000000000, -0.000000000000000000 ) ) ;
#283 = CARTESIAN_POINT ( 'NONE',  ( -3.000000000000000000, 0.000000000000000000, 0.000000000000000000 ) ) ;
#284 = EDGE_CURVE ( 'NONE', #306, #254, #217, .T. ) ;
#285 = CYLINDRICAL_SURFACE ( 'NONE', #318, 10.00000000000000000 ) ;
#286 = AXIS2_PLACEMENT_3D ( 'NONE', #297, #143, #248 ) ;
#287 = CIRCLE ( 'NONE', #77, 10.00000000000000000 ) ;
#288 = DIRECTION ( 'NONE',  ( 0.000000000000000000, 0.000000000000000000, 1.000000000000000000 ) ) ;
#289 = PERSON_AND_ORGANIZATION ( #233, #149 ) ;
#290 = CARTESIAN_POINT ( 'NONE',  ( -1.614212418857619014, 0.000000000000000000, 0.000000000000000000 ) ) ;
#291 = CARTESIAN_POINT ( 'NONE',  ( -3.000000000000000444, 0.000000000000000000, 0.000000000000000000 ) ) ;
#292 = PRODUCT_RELATED_PRODUCT_CATEGORY ( 'detail', '', ( #276 ) ) ;
#293 = CC_DESIGN_PERSON_AND_ORGANIZATION_ASSIGNMENT ( #325, #65, ( #64 ) ) ;
#294 = DIRECTION ( 'NONE',  ( -1.000000000000000000, -0.000000000000000000, -0.000000000000000000 ) ) ;
#295 = CARTESIAN_POINT ( 'NONE',  ( -1.614212418857619014, 0.000000000000000000, 10.00000000000000000 ) ) ;
#296 = ORIENTED_EDGE ( 'NONE', *, *, #309, .T. ) ;
#297 = CARTESIAN_POINT ( 'NONE',  ( 2.500000000000000888, 0.000000000000000000, 0.000000000000000000 ) ) ;
#298 = ORIENTED_EDGE ( 'NONE', *, *, #284, .T. ) ;
#299 = CYLINDRICAL_SURFACE ( 'NONE', #206, 12.69999999999999929 ) ;
#300 = ADVANCED_FACE ( 'NONE', ( #20, #109 ), #191, .F. ) ;
#301 = CALENDAR_DATE ( 2020, 22, 12 ) ;
#302 = DIRECTION ( 'NONE',  ( 1.000000000000000000, 0.000000000000000000, 0.000000000000000000 ) ) ;
#303 = APPROVAL_DATE_TIME ( #332, #134 ) ;
#304 = CIRCLE ( 'NONE', #178, 10.00000000000000000 ) ;
#305 = EDGE_LOOP ( 'NONE', ( #6, #129 ) ) ;
#306 = VERTEX_POINT ( 'NONE', #133 ) ;
#307 = CALENDAR_DATE ( 2020, 22, 12 ) ;
#308 =( GEOMETRIC_REPRESENTATION_CONTEXT ( 3 ) GLOBAL_UNCERTAINTY_ASSIGNED_CONTEXT ( ( #63 ) ) GLOBAL_UNIT_ASSIGNED_CONTEXT ( ( #225, #30, #263 ) ) REPRESENTATION_CONTEXT ( 'NONE', 'WORKASPACE' ) );
#309 = EDGE_CURVE ( 'NONE', #231, #131, #87, .T. ) ;
#310 = EDGE_CURVE ( 'NONE', #322, #328, #165, .T. ) ;
#311 = DIRECTION ( 'NONE',  ( 0.000000000000000000, 0.000000000000000000, 1.000000000000000000 ) ) ;
#312 = DIRECTION ( 'NONE',  ( 0.000000000000000000, 0.000000000000000000, 1.000000000000000000 ) ) ;
#313 = DIRECTION ( 'NONE',  ( 0.000000000000000000, 0.000000000000000000, -1.000000000000000000 ) ) ;
#314 = EDGE_CURVE ( 'NONE', #58, #227, #13, .T. ) ;
#315 = DIRECTION ( 'NONE',  ( -1.000000000000000000, -0.000000000000000000, -0.000000000000000000 ) ) ;
#316 = LOCAL_TIME ( 17, 1, 33.00000000000000000, #21 ) ;
#317 = DIRECTION ( 'NONE',  ( 0.000000000000000000, 0.000000000000000000, 1.000000000000000000 ) ) ;
#318 = AXIS2_PLACEMENT_3D ( 'NONE', #8, #237, #311 ) ;
#319 = DIRECTION ( 'NONE',  ( -1.000000000000000000, 0.000000000000000000, -0.000000000000000000 ) ) ;
#320 = CARTESIAN_POINT ( 'NONE',  ( 0.000000000000000000, 0.000000000000000000, 0.000000000000000000 ) ) ;
#321 = CARTESIAN_POINT ( 'NONE',  ( 2.999999999999999112, 1.224646799147353256E-15, -10.00000000000000000 ) ) ;
#322 = VERTEX_POINT ( 'NONE', #108 ) ;
#323 = DIRECTION ( 'NONE',  ( 0.000000000000000000, 0.000000000000000000, 1.000000000000000000 ) ) ;
#324 = AXIS2_PLACEMENT_3D ( 'NONE', #291, #188, #92 ) ;
#325 = PERSON_AND_ORGANIZATION ( #233, #149 ) ;
#326 = CARTESIAN_POINT ( 'NONE',  ( 2.500000000000000888, 0.000000000000000000, 10.00000000000000000 ) ) ;
#327 = EDGE_CURVE ( 'NONE', #167, #328, #246, .T. ) ;
#328 = VERTEX_POINT ( 'NONE', #85 ) ;
#329 = CARTESIAN_POINT ( 'NONE',  ( -3.000000000000000000, 1.555301434917138433E-15, -12.69999999999999929 ) ) ;
#330 = PERSON_AND_ORGANIZATION ( #233, #149 ) ;
#331 = APPLICATION_CONTEXT ( 'configuration controlled 3d designs of mechanical parts and assemblies' ) ;
#332 = DATE_AND_TIME ( #307, #23 ) ;
#333 = ORIENTED_EDGE ( 'NONE', *, *, #28, .T. ) ;
#334 = CIRCLE ( 'NONE', #240, 12.69999999999999929 ) ;
#335 = DIRECTION ( 'NONE',  ( -1.000000000000000000, -0.000000000000000000, -0.000000000000000000 ) ) ;
ENDSEC;
END-ISO-10303-21;
